  0
SECTION
  2
HEADER
  9
$ACADVER
  1
AC1018
  9
$HANDSEED
  5
FFFFFF
  9
$EXTMAX
 10
7570427.04000000004
 20
5713854.63999999966
 30
1000000.00
  9
$EXTMIN
 10
7569897.04999999981
 20
5712283.70999999996
 30
0.00
  9
$LIMMIN
 10
7569897.04999999981
 20
5712283.70999999996
  9
$LIMMAX
 10
7570427.04000000004
 20
5713854.63999999966
  9
$DIMASZ
 40
2.5
  9
$DIMGAP
 40
0.625
  9
$INSUNITS
 70
6
  9
$MEASUREMENT
 70
1
  9
$DIMEXO
 40
0.625
  9
$DIMTXT
 40
2.5
  9
$DIMSTYLE
  2
Standard
  9
$PLIMMIN
 10
0.0
 20
0.0
  9
$PLIMMAX
 10
210.0
 20
297.0
  9
$DIMEXE
 40
1.25
  9
$TEXTSIZE
 40
2.5
  9
$TEXTSTYLE
  7
Standard
  9
$LWDISPLAY
290
1
  9
$TDCREATE
 40
45799.925928368
  9
$TDUCREATE
 40
45799.842595035
  9
$TDUPDATE
 40
45799.925928368
  9
$TDUUPDATE
 40
45799.842595035
  9
$TDINDWG
 40
0.0
  9
$TDUSRTIMER
 40
0.0
  9
$USRTIMER
 70
1
  0
ENDSEC
  0
SECTION
  2
TABLES
  0
TABLE
  2
VPORT
  5
1
100
AcDbSymbolTable
 70
1
  0
VPORT
  5
2
100
AcDbSymbolTableRecord
100
AcDbViewportTableRecord
  2
*ACTIVE
 70
0
 10
0.0
 20
0.0
 11
1.0
 21
1.0
 12
7570162.045
 22
5713069.175
 13
0.0
 23
0.0
 14
1.0
 24
1.0
 15
0.0
 25
0.0
 16
0.0
 26
0.0
 36
1.0
 17
0.0
 27
0.0
 37
0.0
 40
1570.930
 41
0.337
 42
50.0
 43
0.0
 44
0.0
 50
0.0
 51
0.0
 71
0
 72
100
 73
1
 74
1
 75
0
 76
0
 77
0
 78
0
  0
ENDTAB
  0
TABLE
  2
LTYPE
  5
3
100
AcDbSymbolTable
 70
3
  0
LTYPE
  5
4
100
AcDbSymbolTableRecord
100
AcDbLinetypeTableRecord
  2
ByBlock
 70
0
  3

 72
65
 73
0
 40
0.0
  0
LTYPE
  5
5
100
AcDbSymbolTableRecord
100
AcDbLinetypeTableRecord
  2
ByLayer
 70
0
  3

 72
65
 73
0
 40
0.0
  0
LTYPE
  5
6
100
AcDbSymbolTableRecord
100
AcDbLinetypeTableRecord
  2
CONTINUOUS
 70
0
  3
Solid line
 72
65
 73
0
 40
0.0
  0
ENDTAB
  0
TABLE
  2
LAYER
  5
7
100
AcDbSymbolTable
 70
2
  0
LAYER
  5
8
100
AcDbSymbolTableRecord
100
AcDbLayerTableRecord
  2
0
 70
0
420
0
  6
CONTINUOUS
370
18
390
9
  0
LAYER
  5
A
100
AcDbSymbolTableRecord
100
AcDbLayerTableRecord
  2
ewns_dzialki
 70
0
420
0
  6
CONTINUOUS
370
18
390
9
  0
ENDTAB
  0
TABLE
  2
STYLE
  5
B
100
AcDbSymbolTable
 70
2
  0
STYLE
  5
C
100
AcDbSymbolTableRecord
100
AcDbTextStyleTableRecord
  2
STANDARD
 70
0
 40
0.0
 41
1.0
 50
0.0
 71
0
  3
simplex.shx
  4

  0
STYLE
  5
D
100
AcDbSymbolTableRecord
100
AcDbTextStyleTableRecord
  2
STANDARD_ITALIC
 70
0
 40
0.0
 41
1.0
 50
15.0
 71
0
  3
simplex.shx
  4

  0
ENDTAB
  0
TABLE
  2
VIEW
  5
E
100
AcDbSymbolTable
 70
0
  0
ENDTAB
  0
TABLE
  2
UCS
  5
F
100
AcDbSymbolTable
 70
0
  0
ENDTAB
  0
TABLE
  2
APPID
  5
10
100
AcDbSymbolTable
 70
1
  0
APPID
  5
11
100
AcDbSymbolTableRecord
100
AcDbRegAppTableRecord
  2
ACAD
 70
0
  0
ENDTAB
  0
TABLE
  2
DIMSTYLE
  5
12
100
AcDbSymbolTable
 70
1
100
AcDbDimStyleTable
  0
DIMSTYLE
105
13
100
AcDbSymbolTableRecord
100
AcDbDimStyleTableRecord
  2
Standard
 70
0
340
C
  0
ENDTAB
  0
TABLE
  2
BLOCK_RECORD
  5
14
100
AcDbSymbolTable
 70
2
  0
BLOCK_RECORD
  5
15
100
AcDbSymbolTableRecord
100
AcDbBlockTableRecord
  2
*Model_Space
340
16
  0
BLOCK_RECORD
  5
17
100
AcDbSymbolTableRecord
100
AcDbBlockTableRecord
  2
*Paper_Space
340
18
  0
ENDTAB
  0
ENDSEC
  0
SECTION
  2
BLOCKS
  0
BLOCK
  5
19
100
AcDbEntity
  8
0
100
AcDbBlockBegin
  2
*Model_Space
 70
0
 10
0.0
 20
0.0
 30
0.0
  3
*Model_Space
  1

  0
ENDBLK
  5
1A
100
AcDbEntity
  8
0
100
AcDbBlockEnd
  0
BLOCK
  5
1B
100
AcDbEntity
 67
1
  8
0
100
AcDbBlockBegin
  2
*Paper_Space
 70
0
 10
0.0
 20
0.0
 30
0.0
  3
*Paper_Space
  1

  0
ENDBLK
  5
1C
100
AcDbEntity
 67
1
  8
0
100
AcDbBlockEnd
  0
ENDSEC
  0
SECTION
  2
ENTITIES
  0
POLYLINE
  5
1D
100
AcDbEntity
  8
ewns_dzialki
  6
CONTINUOUS
370
18
100
AcDb2dPolyline
 66
1
 70
129
  0
VERTEX
  5
1E
100
AcDbEntity
  8
ewns_dzialki
100
AcDbVertex
100
AcDb2dVertex
 10
7570274.33999999985
 20
5713505.62000000011
  0
VERTEX
  5
1F
100
AcDbEntity
  8
ewns_dzialki
100
AcDbVertex
100
AcDb2dVertex
 10
7570194.73000000045
 20
5713530.70000000019
  0
VERTEX
  5
20
100
AcDbEntity
  8
ewns_dzialki
100
AcDbVertex
100
AcDb2dVertex
 10
7570203.50999999978
 20
5713559.29999999981
  0
VERTEX
  5
21
100
AcDbEntity
  8
ewns_dzialki
100
AcDbVertex
100
AcDb2dVertex
 10
7570283.33000000007
 20
5713534.13999999966
  0
SEQEND
  5
22
100
AcDbEntity
  8
ewns_dzialki
  0
POLYLINE
  5
23
100
AcDbEntity
  8
ewns_dzialki
  6
CONTINUOUS
370
18
100
AcDb2dPolyline
 66
1
 70
129
  0
VERTEX
  5
24
100
AcDbEntity
  8
ewns_dzialki
100
AcDbVertex
100
AcDb2dVertex
 10
7570283.33000000007
 20
5713534.13999999966
  0
VERTEX
  5
25
100
AcDbEntity
  8
ewns_dzialki
100
AcDbVertex
100
AcDb2dVertex
 10
7570203.50999999978
 20
5713559.29999999981
  0
VERTEX
  5
26
100
AcDbEntity
  8
ewns_dzialki
100
AcDbVertex
100
AcDb2dVertex
 10
7570212.25
 20
5713587.80999999959
  0
VERTEX
  5
27
100
AcDbEntity
  8
ewns_dzialki
100
AcDbVertex
100
AcDb2dVertex
 10
7570292.29999999981
 20
5713562.58999999985
  0
SEQEND
  5
28
100
AcDbEntity
  8
ewns_dzialki
  0
POLYLINE
  5
29
100
AcDbEntity
  8
ewns_dzialki
  6
CONTINUOUS
370
18
100
AcDb2dPolyline
 66
1
 70
129
  0
VERTEX
  5
2A
100
AcDbEntity
  8
ewns_dzialki
100
AcDbVertex
100
AcDb2dVertex
 10
7570292.29999999981
 20
5713562.58999999985
  0
VERTEX
  5
2B
100
AcDbEntity
  8
ewns_dzialki
100
AcDbVertex
100
AcDb2dVertex
 10
7570212.25
 20
5713587.80999999959
  0
VERTEX
  5
2C
100
AcDbEntity
  8
ewns_dzialki
100
AcDbVertex
100
AcDb2dVertex
 10
7570220.98000000045
 20
5713616.25999999978
  0
VERTEX
  5
2D
100
AcDbEntity
  8
ewns_dzialki
100
AcDbVertex
100
AcDb2dVertex
 10
7570301.24000000022
 20
5713590.95999999996
  0
SEQEND
  5
2E
100
AcDbEntity
  8
ewns_dzialki
  0
POLYLINE
  5
2F
100
AcDbEntity
  8
ewns_dzialki
  6
CONTINUOUS
370
18
100
AcDb2dPolyline
 66
1
 70
129
  0
VERTEX
  5
30
100
AcDbEntity
  8
ewns_dzialki
100
AcDbVertex
100
AcDb2dVertex
 10
7570301.24000000022
 20
5713590.95999999996
  0
VERTEX
  5
31
100
AcDbEntity
  8
ewns_dzialki
100
AcDbVertex
100
AcDb2dVertex
 10
7570220.98000000045
 20
5713616.25999999978
  0
VERTEX
  5
32
100
AcDbEntity
  8
ewns_dzialki
100
AcDbVertex
100
AcDb2dVertex
 10
7570229.66999999993
 20
5713644.62000000011
  0
VERTEX
  5
33
100
AcDbEntity
  8
ewns_dzialki
100
AcDbVertex
100
AcDb2dVertex
 10
7570310.15000000037
 20
5713619.25999999978
  0
SEQEND
  5
34
100
AcDbEntity
  8
ewns_dzialki
  0
POLYLINE
  5
35
100
AcDbEntity
  8
ewns_dzialki
  6
CONTINUOUS
370
18
100
AcDb2dPolyline
 66
1
 70
129
  0
VERTEX
  5
36
100
AcDbEntity
  8
ewns_dzialki
100
AcDbVertex
100
AcDb2dVertex
 10
7570310.15000000037
 20
5713619.25999999978
  0
VERTEX
  5
37
100
AcDbEntity
  8
ewns_dzialki
100
AcDbVertex
100
AcDb2dVertex
 10
7570229.66999999993
 20
5713644.62000000011
  0
VERTEX
  5
38
100
AcDbEntity
  8
ewns_dzialki
100
AcDbVertex
100
AcDb2dVertex
 10
7570236.5700000003
 20
5713667.11000000034
  0
VERTEX
  5
39
100
AcDbEntity
  8
ewns_dzialki
100
AcDbVertex
100
AcDb2dVertex
 10
7570238.33999999985
 20
5713672.91000000015
  0
VERTEX
  5
3A
100
AcDbEntity
  8
ewns_dzialki
100
AcDbVertex
100
AcDb2dVertex
 10
7570319.04999999981
 20
5713647.48000000045
  0
SEQEND
  5
3B
100
AcDbEntity
  8
ewns_dzialki
  0
POLYLINE
  5
3C
100
AcDbEntity
  8
ewns_dzialki
  6
CONTINUOUS
370
18
100
AcDb2dPolyline
 66
1
 70
129
  0
VERTEX
  5
3D
100
AcDbEntity
  8
ewns_dzialki
100
AcDbVertex
100
AcDb2dVertex
 10
7570204.87000000011
 20
5713815.94000000041
  0
VERTEX
  5
3E
100
AcDbEntity
  8
ewns_dzialki
100
AcDbVertex
100
AcDb2dVertex
 10
7570192.62999999989
 20
5713775.26999999955
  0
VERTEX
  5
3F
100
AcDbEntity
  8
ewns_dzialki
100
AcDbVertex
100
AcDb2dVertex
 10
7570183.51999999955
 20
5713745.45000000019
  0
VERTEX
  5
40
100
AcDbEntity
  8
ewns_dzialki
100
AcDbVertex
100
AcDb2dVertex
 10
7570159.80999999959
 20
5713669.84999999963
  0
VERTEX
  5
41
100
AcDbEntity
  8
ewns_dzialki
100
AcDbVertex
100
AcDb2dVertex
 10
7570186.78000000026
 20
5713663.37999999989
  0
VERTEX
  5
42
100
AcDbEntity
  8
ewns_dzialki
100
AcDbVertex
100
AcDb2dVertex
 10
7570205.91999999993
 20
5713658.78000000026
  0
VERTEX
  5
43
100
AcDbEntity
  8
ewns_dzialki
100
AcDbVertex
100
AcDb2dVertex
 10
7570204.70000000019
 20
5713655.13999999966
  0
VERTEX
  5
44
100
AcDbEntity
  8
ewns_dzialki
100
AcDbVertex
100
AcDb2dVertex
 10
7570166.41000000015
 20
5713530.75
  0
VERTEX
  5
45
100
AcDbEntity
  8
ewns_dzialki
100
AcDbVertex
100
AcDb2dVertex
 10
7570168.29999999981
 20
5713527.45999999996
  0
VERTEX
  5
46
100
AcDbEntity
  8
ewns_dzialki
100
AcDbVertex
100
AcDb2dVertex
 10
7570184.86000000034
 20
5713498.51999999955
  0
VERTEX
  5
47
100
AcDbEntity
  8
ewns_dzialki
100
AcDbVertex
100
AcDb2dVertex
 10
7570187.04999999981
 20
5713494.70000000019
  0
VERTEX
  5
48
100
AcDbEntity
  8
ewns_dzialki
100
AcDbVertex
100
AcDb2dVertex
 10
7570171.08000000007
 20
5713457.41000000015
  0
VERTEX
  5
49
100
AcDbEntity
  8
ewns_dzialki
100
AcDbVertex
100
AcDb2dVertex
 10
7570111.01999999955
 20
5713613.53000000026
  0
VERTEX
  5
4A
100
AcDbEntity
  8
ewns_dzialki
100
AcDbVertex
100
AcDb2dVertex
 10
7570110.25999999978
 20
5713616.04000000004
  0
VERTEX
  5
4B
100
AcDbEntity
  8
ewns_dzialki
100
AcDbVertex
100
AcDb2dVertex
 10
7570108.99000000022
 20
5713619.3200000003
  0
VERTEX
  5
4C
100
AcDbEntity
  8
ewns_dzialki
100
AcDbVertex
100
AcDb2dVertex
 10
7570115.37999999989
 20
5713617.49000000022
  0
VERTEX
  5
4D
100
AcDbEntity
  8
ewns_dzialki
100
AcDbVertex
100
AcDb2dVertex
 10
7570126.25
 20
5713598.40000000037
  0
VERTEX
  5
4E
100
AcDbEntity
  8
ewns_dzialki
100
AcDbVertex
100
AcDb2dVertex
 10
7570130.66000000015
 20
5713596.98000000045
  0
VERTEX
  5
4F
100
AcDbEntity
  8
ewns_dzialki
100
AcDbVertex
100
AcDb2dVertex
 10
7570177.78000000026
 20
5713747.21999999974
  0
VERTEX
  5
50
100
AcDbEntity
  8
ewns_dzialki
100
AcDbVertex
100
AcDb2dVertex
 10
7570186.88999999966
 20
5713777.01999999955
  0
VERTEX
  5
51
100
AcDbEntity
  8
ewns_dzialki
100
AcDbVertex
100
AcDb2dVertex
 10
7570197.79000000004
 20
5713813.24000000022
  0
SEQEND
  5
52
100
AcDbEntity
  8
ewns_dzialki
  0
POLYLINE
  5
53
100
AcDbEntity
  8
ewns_dzialki
  6
CONTINUOUS
370
18
100
AcDb2dPolyline
 66
1
 70
129
  0
VERTEX
  5
54
100
AcDbEntity
  8
ewns_dzialki
100
AcDbVertex
100
AcDb2dVertex
 10
7570202.71999999974
 20
5713716.00999999978
  0
VERTEX
  5
55
100
AcDbEntity
  8
ewns_dzialki
100
AcDbVertex
100
AcDb2dVertex
 10
7570212.29000000004
 20
5713747.59999999963
  0
VERTEX
  5
56
100
AcDbEntity
  8
ewns_dzialki
100
AcDbVertex
100
AcDb2dVertex
 10
7570236.66000000015
 20
5713828.04000000004
  0
VERTEX
  5
57
100
AcDbEntity
  8
ewns_dzialki
100
AcDbVertex
100
AcDb2dVertex
 10
7570253.21999999974
 20
5713834.33999999985
  0
VERTEX
  5
58
100
AcDbEntity
  8
ewns_dzialki
100
AcDbVertex
100
AcDb2dVertex
 10
7570210.25999999978
 20
5713693.66999999993
  0
VERTEX
  5
59
100
AcDbEntity
  8
ewns_dzialki
100
AcDbVertex
100
AcDb2dVertex
 10
7570218.79999999981
 20
5713691.0700000003
  0
VERTEX
  5
5A
100
AcDbEntity
  8
ewns_dzialki
100
AcDbVertex
100
AcDb2dVertex
 10
7570208.25999999978
 20
5713656.46999999974
  0
VERTEX
  5
5B
100
AcDbEntity
  8
ewns_dzialki
100
AcDbVertex
100
AcDb2dVertex
 10
7570168.29999999981
 20
5713527.45999999996
  0
VERTEX
  5
5C
100
AcDbEntity
  8
ewns_dzialki
100
AcDbVertex
100
AcDb2dVertex
 10
7570166.41000000015
 20
5713530.75
  0
VERTEX
  5
5D
100
AcDbEntity
  8
ewns_dzialki
100
AcDbVertex
100
AcDb2dVertex
 10
7570204.70000000019
 20
5713655.13999999966
  0
VERTEX
  5
5E
100
AcDbEntity
  8
ewns_dzialki
100
AcDbVertex
100
AcDb2dVertex
 10
7570205.91999999993
 20
5713658.78000000026
  0
VERTEX
  5
5F
100
AcDbEntity
  8
ewns_dzialki
100
AcDbVertex
100
AcDb2dVertex
 10
7570186.78000000026
 20
5713663.37999999989
  0
SEQEND
  5
60
100
AcDbEntity
  8
ewns_dzialki
  0
POLYLINE
  5
61
100
AcDbEntity
  8
ewns_dzialki
  6
CONTINUOUS
370
18
100
AcDb2dPolyline
 66
1
 70
129
  0
VERTEX
  5
62
100
AcDbEntity
  8
ewns_dzialki
100
AcDbVertex
100
AcDb2dVertex
 10
7570185.94000000041
 20
5713502.03000000026
  0
VERTEX
  5
63
100
AcDbEntity
  8
ewns_dzialki
100
AcDbVertex
100
AcDb2dVertex
 10
7570184.86000000034
 20
5713498.51999999955
  0
VERTEX
  5
64
100
AcDbEntity
  8
ewns_dzialki
100
AcDbVertex
100
AcDb2dVertex
 10
7570168.29999999981
 20
5713527.45999999996
  0
VERTEX
  5
65
100
AcDbEntity
  8
ewns_dzialki
100
AcDbVertex
100
AcDb2dVertex
 10
7570208.25999999978
 20
5713656.46999999974
  0
VERTEX
  5
66
100
AcDbEntity
  8
ewns_dzialki
100
AcDbVertex
100
AcDb2dVertex
 10
7570218.79999999981
 20
5713691.0700000003
  0
VERTEX
  5
67
100
AcDbEntity
  8
ewns_dzialki
100
AcDbVertex
100
AcDb2dVertex
 10
7570263.70999999996
 20
5713838.48000000045
  0
VERTEX
  5
68
100
AcDbEntity
  8
ewns_dzialki
100
AcDbVertex
100
AcDb2dVertex
 10
7570277.62000000011
 20
5713846.21999999974
  0
VERTEX
  5
69
100
AcDbEntity
  8
ewns_dzialki
100
AcDbVertex
100
AcDb2dVertex
 10
7570289.62999999989
 20
5713848.15000000037
  0
VERTEX
  5
6A
100
AcDbEntity
  8
ewns_dzialki
100
AcDbVertex
100
AcDb2dVertex
 10
7570290.95000000019
 20
5713845.86000000034
  0
VERTEX
  5
6B
100
AcDbEntity
  8
ewns_dzialki
100
AcDbVertex
100
AcDb2dVertex
 10
7570238.33999999985
 20
5713672.91000000015
  0
VERTEX
  5
6C
100
AcDbEntity
  8
ewns_dzialki
100
AcDbVertex
100
AcDb2dVertex
 10
7570236.5700000003
 20
5713667.11000000034
  0
VERTEX
  5
6D
100
AcDbEntity
  8
ewns_dzialki
100
AcDbVertex
100
AcDb2dVertex
 10
7570229.66999999993
 20
5713644.62000000011
  0
VERTEX
  5
6E
100
AcDbEntity
  8
ewns_dzialki
100
AcDbVertex
100
AcDb2dVertex
 10
7570220.98000000045
 20
5713616.25999999978
  0
VERTEX
  5
6F
100
AcDbEntity
  8
ewns_dzialki
100
AcDbVertex
100
AcDb2dVertex
 10
7570212.25
 20
5713587.80999999959
  0
VERTEX
  5
70
100
AcDbEntity
  8
ewns_dzialki
100
AcDbVertex
100
AcDb2dVertex
 10
7570203.50999999978
 20
5713559.29999999981
  0
VERTEX
  5
71
100
AcDbEntity
  8
ewns_dzialki
100
AcDbVertex
100
AcDb2dVertex
 10
7570194.73000000045
 20
5713530.70000000019
  0
SEQEND
  5
72
100
AcDbEntity
  8
ewns_dzialki
  0
POLYLINE
  5
73
100
AcDbEntity
  8
ewns_dzialki
  6
CONTINUOUS
370
18
100
AcDb2dPolyline
 66
1
 70
129
  0
VERTEX
  5
74
100
AcDbEntity
  8
ewns_dzialki
100
AcDbVertex
100
AcDb2dVertex
 10
7570250.95000000019
 20
5713393.33000000007
  0
VERTEX
  5
75
100
AcDbEntity
  8
ewns_dzialki
100
AcDbVertex
100
AcDb2dVertex
 10
7570296.75
 20
5713540.62000000011
  0
VERTEX
  5
76
100
AcDbEntity
  8
ewns_dzialki
100
AcDbVertex
100
AcDb2dVertex
 10
7570340.5
 20
5713682.41999999993
  0
VERTEX
  5
77
100
AcDbEntity
  8
ewns_dzialki
100
AcDbVertex
100
AcDb2dVertex
 10
7570337.48000000045
 20
5713756.50999999978
  0
VERTEX
  5
78
100
AcDbEntity
  8
ewns_dzialki
100
AcDbVertex
100
AcDb2dVertex
 10
7570330.95999999996
 20
5713783.12999999989
  0
VERTEX
  5
79
100
AcDbEntity
  8
ewns_dzialki
100
AcDbVertex
100
AcDb2dVertex
 10
7570427.04000000004
 20
5713771.8200000003
  0
VERTEX
  5
7A
100
AcDbEntity
  8
ewns_dzialki
100
AcDbVertex
100
AcDb2dVertex
 10
7570308.12000000011
 20
5713349.96999999974
  0
SEQEND
  5
7B
100
AcDbEntity
  8
ewns_dzialki
  0
POLYLINE
  5
7C
100
AcDbEntity
  8
ewns_dzialki
  6
CONTINUOUS
370
18
100
AcDb2dPolyline
 66
1
 70
129
  0
VERTEX
  5
7D
100
AcDbEntity
  8
ewns_dzialki
100
AcDbVertex
100
AcDb2dVertex
 10
7569948.95999999996
 20
5712449.5700000003
  0
VERTEX
  5
7E
100
AcDbEntity
  8
ewns_dzialki
100
AcDbVertex
100
AcDb2dVertex
 10
7569950.54000000004
 20
5712454.30999999959
  0
VERTEX
  5
7F
100
AcDbEntity
  8
ewns_dzialki
100
AcDbVertex
100
AcDb2dVertex
 10
7569963.9299999997
 20
5712494.73000000045
  0
VERTEX
  5
80
100
AcDbEntity
  8
ewns_dzialki
100
AcDbVertex
100
AcDb2dVertex
 10
7569964.15000000037
 20
5712495.41000000015
  0
VERTEX
  5
81
100
AcDbEntity
  8
ewns_dzialki
100
AcDbVertex
100
AcDb2dVertex
 10
7569992.86000000034
 20
5712583.91000000015
  0
VERTEX
  5
82
100
AcDbEntity
  8
ewns_dzialki
100
AcDbVertex
100
AcDb2dVertex
 10
7569998.55999999959
 20
5712611.28000000026
  0
VERTEX
  5
83
100
AcDbEntity
  8
ewns_dzialki
100
AcDbVertex
100
AcDb2dVertex
 10
7570001.94000000041
 20
5712622.5700000003
  0
VERTEX
  5
84
100
AcDbEntity
  8
ewns_dzialki
100
AcDbVertex
100
AcDb2dVertex
 10
7570005.28000000026
 20
5712633.69000000041
  0
VERTEX
  5
85
100
AcDbEntity
  8
ewns_dzialki
100
AcDbVertex
100
AcDb2dVertex
 10
7570012.55999999959
 20
5712657.99000000022
  0
VERTEX
  5
86
100
AcDbEntity
  8
ewns_dzialki
100
AcDbVertex
100
AcDb2dVertex
 10
7570015.79000000004
 20
5712668.75
  0
VERTEX
  5
87
100
AcDbEntity
  8
ewns_dzialki
100
AcDbVertex
100
AcDb2dVertex
 10
7570020.29999999981
 20
5712683.76999999955
  0
VERTEX
  5
88
100
AcDbEntity
  8
ewns_dzialki
100
AcDbVertex
100
AcDb2dVertex
 10
7570021.83999999985
 20
5712688.91000000015
  0
VERTEX
  5
89
100
AcDbEntity
  8
ewns_dzialki
100
AcDbVertex
100
AcDb2dVertex
 10
7570044.33999999985
 20
5712763.95000000019
  0
VERTEX
  5
8A
100
AcDbEntity
  8
ewns_dzialki
100
AcDbVertex
100
AcDb2dVertex
 10
7570050.70999999996
 20
5712785.16000000015
  0
VERTEX
  5
8B
100
AcDbEntity
  8
ewns_dzialki
100
AcDbVertex
100
AcDb2dVertex
 10
7570053.16999999993
 20
5712793.08000000007
  0
VERTEX
  5
8C
100
AcDbEntity
  8
ewns_dzialki
100
AcDbVertex
100
AcDb2dVertex
 10
7570058.36000000034
 20
5712809.75
  0
VERTEX
  5
8D
100
AcDbEntity
  8
ewns_dzialki
100
AcDbVertex
100
AcDb2dVertex
 10
7570059.99000000022
 20
5712814.98000000045
  0
VERTEX
  5
8E
100
AcDbEntity
  8
ewns_dzialki
100
AcDbVertex
100
AcDb2dVertex
 10
7570072.04999999981
 20
5712853.71999999974
  0
VERTEX
  5
8F
100
AcDbEntity
  8
ewns_dzialki
100
AcDbVertex
100
AcDb2dVertex
 10
7570072.71999999974
 20
5712855.86000000034
  0
VERTEX
  5
90
100
AcDbEntity
  8
ewns_dzialki
100
AcDbVertex
100
AcDb2dVertex
 10
7570083.12000000011
 20
5712889.26999999955
  0
VERTEX
  5
91
100
AcDbEntity
  8
ewns_dzialki
100
AcDbVertex
100
AcDb2dVertex
 10
7570093.66999999993
 20
5712923.15000000037
  0
VERTEX
  5
92
100
AcDbEntity
  8
ewns_dzialki
100
AcDbVertex
100
AcDb2dVertex
 10
7570099.45000000019
 20
5712941.70999999996
  0
VERTEX
  5
93
100
AcDbEntity
  8
ewns_dzialki
100
AcDbVertex
100
AcDb2dVertex
 10
7570110.59999999963
 20
5712977.54000000004
  0
VERTEX
  5
94
100
AcDbEntity
  8
ewns_dzialki
100
AcDbVertex
100
AcDb2dVertex
 10
7570130.79000000004
 20
5713042.37000000011
  0
VERTEX
  5
95
100
AcDbEntity
  8
ewns_dzialki
100
AcDbVertex
100
AcDb2dVertex
 10
7570140.08999999985
 20
5713074.63999999966
  0
VERTEX
  5
96
100
AcDbEntity
  8
ewns_dzialki
100
AcDbVertex
100
AcDb2dVertex
 10
7570144.45999999996
 20
5713088.33000000007
  0
VERTEX
  5
97
100
AcDbEntity
  8
ewns_dzialki
100
AcDbVertex
100
AcDb2dVertex
 10
7570149.13999999966
 20
5713102.96999999974
  0
VERTEX
  5
98
100
AcDbEntity
  8
ewns_dzialki
100
AcDbVertex
100
AcDb2dVertex
 10
7570153.62000000011
 20
5713117.03000000026
  0
VERTEX
  5
99
100
AcDbEntity
  8
ewns_dzialki
100
AcDbVertex
100
AcDb2dVertex
 10
7570171.45999999996
 20
5713173.0
  0
VERTEX
  5
9A
100
AcDbEntity
  8
ewns_dzialki
100
AcDbVertex
100
AcDb2dVertex
 10
7570172.20999999996
 20
5713175.44000000041
  0
VERTEX
  5
9B
100
AcDbEntity
  8
ewns_dzialki
100
AcDbVertex
100
AcDb2dVertex
 10
7570192.79000000004
 20
5713242.78000000026
  0
VERTEX
  5
9C
100
AcDbEntity
  8
ewns_dzialki
100
AcDbVertex
100
AcDb2dVertex
 10
7570200.54000000004
 20
5713268.13999999966
  0
VERTEX
  5
9D
100
AcDbEntity
  8
ewns_dzialki
100
AcDbVertex
100
AcDb2dVertex
 10
7570208.4299999997
 20
5713293.96999999974
  0
VERTEX
  5
9E
100
AcDbEntity
  8
ewns_dzialki
100
AcDbVertex
100
AcDb2dVertex
 10
7570208.83000000007
 20
5713295.28000000026
  0
VERTEX
  5
9F
100
AcDbEntity
  8
ewns_dzialki
100
AcDbVertex
100
AcDb2dVertex
 10
7570221.45000000019
 20
5713336.25999999978
  0
VERTEX
  5
A0
100
AcDbEntity
  8
ewns_dzialki
100
AcDbVertex
100
AcDb2dVertex
 10
7570241.15000000037
 20
5713400.28000000026
  0
VERTEX
  5
A1
100
AcDbEntity
  8
ewns_dzialki
100
AcDbVertex
100
AcDb2dVertex
 10
7570265.33000000007
 20
5713477.00999999978
  0
VERTEX
  5
A2
100
AcDbEntity
  8
ewns_dzialki
100
AcDbVertex
100
AcDb2dVertex
 10
7570274.33999999985
 20
5713505.62000000011
  0
VERTEX
  5
A3
100
AcDbEntity
  8
ewns_dzialki
100
AcDbVertex
100
AcDb2dVertex
 10
7570283.33000000007
 20
5713534.13999999966
  0
VERTEX
  5
A4
100
AcDbEntity
  8
ewns_dzialki
100
AcDbVertex
100
AcDb2dVertex
 10
7570292.29999999981
 20
5713562.58999999985
  0
VERTEX
  5
A5
100
AcDbEntity
  8
ewns_dzialki
100
AcDbVertex
100
AcDb2dVertex
 10
7570301.24000000022
 20
5713590.95999999996
  0
VERTEX
  5
A6
100
AcDbEntity
  8
ewns_dzialki
100
AcDbVertex
100
AcDb2dVertex
 10
7570310.15000000037
 20
5713619.25999999978
  0
VERTEX
  5
A7
100
AcDbEntity
  8
ewns_dzialki
100
AcDbVertex
100
AcDb2dVertex
 10
7570319.04999999981
 20
5713647.48000000045
  0
VERTEX
  5
A8
100
AcDbEntity
  8
ewns_dzialki
100
AcDbVertex
100
AcDb2dVertex
 10
7570329.58000000007
 20
5713680.9299999997
  0
VERTEX
  5
A9
100
AcDbEntity
  8
ewns_dzialki
100
AcDbVertex
100
AcDb2dVertex
 10
7570331.08000000007
 20
5713719.5
  0
VERTEX
  5
AA
100
AcDbEntity
  8
ewns_dzialki
100
AcDbVertex
100
AcDb2dVertex
 10
7570328.11000000034
 20
5713751.5700000003
  0
VERTEX
  5
AB
100
AcDbEntity
  8
ewns_dzialki
100
AcDbVertex
100
AcDb2dVertex
 10
7570326.95999999996
 20
5713761.44000000041
  0
VERTEX
  5
AC
100
AcDbEntity
  8
ewns_dzialki
100
AcDbVertex
100
AcDb2dVertex
 10
7570318.75999999978
 20
5713786.63999999966
  0
VERTEX
  5
AD
100
AcDbEntity
  8
ewns_dzialki
100
AcDbVertex
100
AcDb2dVertex
 10
7570305.51999999955
 20
5713815.29999999981
  0
VERTEX
  5
AE
100
AcDbEntity
  8
ewns_dzialki
100
AcDbVertex
100
AcDb2dVertex
 10
7570290.95000000019
 20
5713845.86000000034
  0
VERTEX
  5
AF
100
AcDbEntity
  8
ewns_dzialki
100
AcDbVertex
100
AcDb2dVertex
 10
7570289.62999999989
 20
5713848.15000000037
  0
VERTEX
  5
B0
100
AcDbEntity
  8
ewns_dzialki
100
AcDbVertex
100
AcDb2dVertex
 10
7570298.40000000037
 20
5713854.63999999966
  0
VERTEX
  5
B1
100
AcDbEntity
  8
ewns_dzialki
100
AcDbVertex
100
AcDb2dVertex
 10
7570327.76999999955
 20
5713789.05999999959
  0
VERTEX
  5
B2
100
AcDbEntity
  8
ewns_dzialki
100
AcDbVertex
100
AcDb2dVertex
 10
7570330.95999999996
 20
5713783.12999999989
  0
VERTEX
  5
B3
100
AcDbEntity
  8
ewns_dzialki
100
AcDbVertex
100
AcDb2dVertex
 10
7570337.48000000045
 20
5713756.50999999978
  0
VERTEX
  5
B4
100
AcDbEntity
  8
ewns_dzialki
100
AcDbVertex
100
AcDb2dVertex
 10
7570340.5
 20
5713682.41999999993
  0
VERTEX
  5
B5
100
AcDbEntity
  8
ewns_dzialki
100
AcDbVertex
100
AcDb2dVertex
 10
7570296.75
 20
5713540.62000000011
  0
VERTEX
  5
B6
100
AcDbEntity
  8
ewns_dzialki
100
AcDbVertex
100
AcDb2dVertex
 10
7570250.95000000019
 20
5713393.33000000007
  0
VERTEX
  5
B7
100
AcDbEntity
  8
ewns_dzialki
100
AcDbVertex
100
AcDb2dVertex
 10
7570225.12000000011
 20
5713311.40000000037
  0
VERTEX
  5
B8
100
AcDbEntity
  8
ewns_dzialki
100
AcDbVertex
100
AcDb2dVertex
 10
7570223.78000000026
 20
5713307.12999999989
  0
VERTEX
  5
B9
100
AcDbEntity
  8
ewns_dzialki
100
AcDbVertex
100
AcDb2dVertex
 10
7570182.76999999955
 20
5713165.54000000004
  0
VERTEX
  5
BA
100
AcDbEntity
  8
ewns_dzialki
100
AcDbVertex
100
AcDb2dVertex
 10
7570176.62999999989
 20
5713146.5700000003
  0
VERTEX
  5
BB
100
AcDbEntity
  8
ewns_dzialki
100
AcDbVertex
100
AcDb2dVertex
 10
7570169.29000000004
 20
5713123.88999999966
  0
VERTEX
  5
BC
100
AcDbEntity
  8
ewns_dzialki
100
AcDbVertex
100
AcDb2dVertex
 10
7570156.49000000022
 20
5713084.33000000007
  0
VERTEX
  5
BD
100
AcDbEntity
  8
ewns_dzialki
100
AcDbVertex
100
AcDb2dVertex
 10
7570148.16999999993
 20
5713058.61000000034
  0
VERTEX
  5
BE
100
AcDbEntity
  8
ewns_dzialki
100
AcDbVertex
100
AcDb2dVertex
 10
7570140.16000000015
 20
5713033.05999999959
  0
VERTEX
  5
BF
100
AcDbEntity
  8
ewns_dzialki
100
AcDbVertex
100
AcDb2dVertex
 10
7570133.45999999996
 20
5713011.36000000034
  0
VERTEX
  5
C0
100
AcDbEntity
  8
ewns_dzialki
100
AcDbVertex
100
AcDb2dVertex
 10
7570129.55999999959
 20
5712998.8200000003
  0
VERTEX
  5
C1
100
AcDbEntity
  8
ewns_dzialki
100
AcDbVertex
100
AcDb2dVertex
 10
7570125.75
 20
5712986.59999999963
  0
VERTEX
  5
C2
100
AcDbEntity
  8
ewns_dzialki
100
AcDbVertex
100
AcDb2dVertex
 10
7570109.88999999966
 20
5712935.95999999996
  0
VERTEX
  5
C3
100
AcDbEntity
  8
ewns_dzialki
100
AcDbVertex
100
AcDb2dVertex
 10
7570079.38999999966
 20
5712837.79999999981
  0
VERTEX
  5
C4
100
AcDbEntity
  8
ewns_dzialki
100
AcDbVertex
100
AcDb2dVertex
 10
7570078.74000000022
 20
5712835.78000000026
  0
VERTEX
  5
C5
100
AcDbEntity
  8
ewns_dzialki
100
AcDbVertex
100
AcDb2dVertex
 10
7570064.28000000026
 20
5712791.29999999981
  0
VERTEX
  5
C6
100
AcDbEntity
  8
ewns_dzialki
100
AcDbVertex
100
AcDb2dVertex
 10
7570043.25
 20
5712725.00999999978
  0
VERTEX
  5
C7
100
AcDbEntity
  8
ewns_dzialki
100
AcDbVertex
100
AcDb2dVertex
 10
7570025.91000000015
 20
5712667.66000000015
  0
VERTEX
  5
C8
100
AcDbEntity
  8
ewns_dzialki
100
AcDbVertex
100
AcDb2dVertex
 10
7570014.26999999955
 20
5712629.16999999993
  0
VERTEX
  5
C9
100
AcDbEntity
  8
ewns_dzialki
100
AcDbVertex
100
AcDb2dVertex
 10
7570008.79000000004
 20
5712610.79999999981
  0
VERTEX
  5
CA
100
AcDbEntity
  8
ewns_dzialki
100
AcDbVertex
100
AcDb2dVertex
 10
7570008.30999999959
 20
5712608.49000000022
  0
VERTEX
  5
CB
100
AcDbEntity
  8
ewns_dzialki
100
AcDbVertex
100
AcDb2dVertex
 10
7569988.05999999959
 20
5712547.23000000045
  0
VERTEX
  5
CC
100
AcDbEntity
  8
ewns_dzialki
100
AcDbVertex
100
AcDb2dVertex
 10
7569985.84999999963
 20
5712540.54000000004
  0
VERTEX
  5
CD
100
AcDbEntity
  8
ewns_dzialki
100
AcDbVertex
100
AcDb2dVertex
 10
7569970.20000000019
 20
5712492.86000000034
  0
VERTEX
  5
CE
100
AcDbEntity
  8
ewns_dzialki
100
AcDbVertex
100
AcDb2dVertex
 10
7569947.34999999963
 20
5712417.88999999966
  0
VERTEX
  5
CF
100
AcDbEntity
  8
ewns_dzialki
100
AcDbVertex
100
AcDb2dVertex
 10
7569924.70000000019
 20
5712352.91000000015
  0
VERTEX
  5
D0
100
AcDbEntity
  8
ewns_dzialki
100
AcDbVertex
100
AcDb2dVertex
 10
7569915.9299999997
 20
5712325.62000000011
  0
VERTEX
  5
D1
100
AcDbEntity
  8
ewns_dzialki
100
AcDbVertex
100
AcDb2dVertex
 10
7569914.5700000003
 20
5712321.40000000037
  0
VERTEX
  5
D2
100
AcDbEntity
  8
ewns_dzialki
100
AcDbVertex
100
AcDb2dVertex
 10
7569902.45999999996
 20
5712283.70999999996
  0
VERTEX
  5
D3
100
AcDbEntity
  8
ewns_dzialki
100
AcDbVertex
100
AcDb2dVertex
 10
7569897.04999999981
 20
5712287.38999999966
  0
VERTEX
  5
D4
100
AcDbEntity
  8
ewns_dzialki
100
AcDbVertex
100
AcDb2dVertex
 10
7569908.16000000015
 20
5712319.73000000045
  0
VERTEX
  5
D5
100
AcDbEntity
  8
ewns_dzialki
100
AcDbVertex
100
AcDb2dVertex
 10
7569909.03000000026
 20
5712322.6799999997
  0
VERTEX
  5
D6
100
AcDbEntity
  8
ewns_dzialki
100
AcDbVertex
100
AcDb2dVertex
 10
7569917.53000000026
 20
5712351.45000000019
  0
VERTEX
  5
D7
100
AcDbEntity
  8
ewns_dzialki
100
AcDbVertex
100
AcDb2dVertex
 10
7569918.74000000022
 20
5712355.51999999955
  0
VERTEX
  5
D8
100
AcDbEntity
  8
ewns_dzialki
100
AcDbVertex
100
AcDb2dVertex
 10
7569939.30999999959
 20
5712420.63999999966
  0
SEQEND
  5
D9
100
AcDbEntity
  8
ewns_dzialki
  0
TEXT
  5
DA
100
AcDbEntity
  8
ewns_dzialki
370
35
100
AcDbText
 10
7570236.84250000026
 20
5713531.58499999996
 40
1.75
  1
125/3
 50
0.00
 41
0.66
  7
STANDARD
 72
1
 11
7570239.03000000026
 21
5713532.45999999996
100
AcDbText
 73
2
  0
TEXT
  5
DB
100
AcDbEntity
  8
ewns_dzialki
370
35
100
AcDbText
 10
7570245.71749999933
 20
5713560.09999999963
 40
1.75
  1
125/4
 50
0.00
 41
0.66
  7
STANDARD
 72
1
 11
7570247.90499999933
 21
5713560.97499999963
100
AcDbText
 73
2
  0
TEXT
  5
DC
100
AcDbEntity
  8
ewns_dzialki
370
35
100
AcDbText
 10
7570254.55750000011
 20
5713588.54999999981
 40
1.75
  1
125/5
 50
0.00
 41
0.66
  7
STANDARD
 72
1
 11
7570256.74500000011
 21
5713589.42499999981
100
AcDbText
 73
2
  0
TEXT
  5
DD
100
AcDbEntity
  8
ewns_dzialki
370
35
100
AcDbText
 10
7570263.37750000041
 20
5713616.91500000004
 40
1.75
  1
125/6
 50
0.00
 41
0.66
  7
STANDARD
 72
1
 11
7570265.56500000041
 21
5713617.79000000004
100
AcDbText
 73
2
  0
TEXT
  5
DE
100
AcDbEntity
  8
ewns_dzialki
370
35
100
AcDbText
 10
7570272.1724999994
 20
5713645.20999999996
 40
1.75
  1
125/7
 50
0.00
 41
0.66
  7
STANDARD
 72
1
 11
7570274.3599999994
 21
5713646.08499999996
100
AcDbText
 73
2
  0
TEXT
  5
DF
100
AcDbEntity
  8
ewns_dzialki
370
35
100
AcDbText
 10
7570155.26750000007
 20
5713635.80000000074
 40
1.75
  1
120/2
 50
0.00
 41
0.66
  7
STANDARD
 72
1
 11
7570157.45500000007
 21
5713636.67500000074
100
AcDbText
 73
2
  0
TEXT
  5
E0
100
AcDbEntity
  8
ewns_dzialki
370
35
100
AcDbText
 10
7570208.50249999948
 20
5713680.02500000037
 40
1.75
  1
122
 50
0.00
 41
0.66
  7
STANDARD
 72
1
 11
7570209.81499999948
 21
5713680.90000000037
100
AcDbText
 73
2
  0
TEXT
  5
E1
100
AcDbEntity
  8
ewns_dzialki
370
35
100
AcDbText
 10
7570228.3125
 20
5713672.45999999996
 40
1.75
  1
124
 50
0.00
 41
0.66
  7
STANDARD
 72
1
 11
7570229.625
 21
5713673.33499999996
100
AcDbText
 73
2
  0
TEXT
  5
E2
100
AcDbEntity
  8
ewns_dzialki
370
35
100
AcDbText
 10
7570337.68250000011
 20
5713565.67499999981
 40
1.75
  1
128
 50
0.00
 41
0.66
  7
STANDARD
 72
1
 11
7570338.99500000011
 21
5713566.54999999981
100
AcDbText
 73
2
  0
TEXT
  5
E3
100
AcDbEntity
  8
ewns_dzialki
370
35
100
AcDbText
 10
7570143.738814109
 20
5713068.29999999981
 40
1.75
  1
127
 50
0.00
 41
0.66
  7
STANDARD
 72
1
 11
7570145.051314109
 21
5713069.17499999981
100
AcDbText
 73
2
  0
ENDSEC
  0
SECTION
  2
OBJECTS
  0
DICTIONARY
  5
E4
330
0
100
AcDbDictionary
280
0
281
1
  3
ACAD_GROUP
350
E5
  3
ACAD_LAYOUT
350
E6
  3
ACAD_MLINESTYLE
350
E7
  3
ACAD_PLOTSETTINGS
350
E8
  3
ACAD_PLOTSTYLENAME
350
E9
  0
DICTIONARY
  5
E5
102
{ACAD_REACTORS
330
E4
102
}
330
E4
100
AcDbDictionary
280
0
281
1
  0
DICTIONARY
  5
E6
102
{ACAD_REACTORS
330
E4
102
}
330
E4
100
AcDbDictionary
280
0
281
1
  3
Layout
350
18
  3
Model
350
16
  0
DICTIONARY
  5
E7
102
{ACAD_REACTORS
330
E4
102
}
330
E4
100
AcDbDictionary
280
0
281
1
  3
Standard
350
EA
  0
DICTIONARY
  5
E8
102
{ACAD_REACTORS
330
E4
102
}
330
E4
100
AcDbDictionary
280
0
281
1
  0
ACDBDICTIONARYWDFLT
  5
E9
102
{ACAD_REACTORS
330
E4
102
}
330
E4
100
AcDbDictionary
281
1
  3
Normal
350
9
100
AcDbDictionaryWithDefault
340
9
  0
LAYOUT
  5
18
100
AcDbPlotSettings
  1

  2

  4

  6

 40
0.0
 41
0.0
 42
0.0
 43
0.0
 44
0.0
 45
0.0
 46
0.0
 47
0.0
 48
0.0
 49
0.0
140
0.0
141
0.0
142
1.0
143
1.0
 70
688
 72
1
 73
0
 74
5
  7

 75
0
147
1.0
148
0.0
149
0.0
100
AcDbLayout
  1
Layout
 70
1
 71
1
 10
0.0
 20
0.0
 11
420.0
 21
297.0
 12
0.0
 22
0.0
 32
0.0
 14
100000000000000000000.0
 24
100000000000000000000.0
 34
100000000000000000000.0
 15
-100000000000000000000.0
 25
-100000000000000000000.0
 35
-100000000000000000000.0
146
0.0
 13
0.0
 23
0.0
 33
0.0
 16
1.0
 26
0.0
 36
0.0
 17
0.0
 27
1.0
 37
0.0
 76
0
330
17
  0
LAYOUT
  5
16
100
AcDbPlotSettings
  1

  2

  4

  6

 40
0.0
 41
0.0
 42
0.0
 43
0.0
 44
0.0
 45
0.0
 46
0.0
 47
0.0
 48
0.0
 49
0.0
140
0.0
141
0.0
142
1.0
143
1.0
 70
1712
 72
1
 73
0
 74
0
  7

 75
0
147
1.0
148
0.0
149
0.0
100
AcDbLayout
  1
Model
 70
1
 71
0
 10
0.0
 20
0.0
 11
12.0
 21
9.0
 12
0.0
 22
0.0
 32
0.0
 14
0.0
 24
0.0
 34
0.0
 15
0.0
 25
0.0
 35
0.0
146
0.0
 13
0.0
 23
0.0
 33
0.0
 16
1.0
 26
0.0
 36
0.0
 17
0.0
 27
1.0
 37
0.0
 76
0
330
15
  0
MLINESTYLE
  5
EA
102
{ACAD_REACTORS
330
E7
102
}
330
E7
100
AcDbMlineStyle
  2
Standard
 70
0
  3

 62
256
 51
90.0
 52
90.0
  2
Standard
 71
2
 49
0.5
 62
256
  6
ByLayer
 49
-0.5
 62
256
  6
ByLayer
  0
ACDBPLACEHOLDER
  5
9
  0
ENDSEC
  0
EOF
